  0
SECTION
  2
HEADER
  9
$ACADVER
  1
AC1015
  9
$ACADMAINTVER
 70
     6
  9
$DWGCODEPAGE
  3
ANSI_1254
  9
$INSBASE
 10
0.0
 20
0.0
 30
0.0
  9
$EXTMIN
 10
0.0
 20
0.0
 30
0.0
  9
$EXTMAX
 10
279.4
 20
215.9
 30
0.0
  9
$LIMMIN
 10
0.0
 20
0.0
  9
$LIMMAX
 10
279.4
 20
215.9
  9
$ORTHOMODE
 70
     0
  9
$REGENMODE
 70
     1
  9
$FILLMODE
 70
     1
  9
$QTEXTMODE
 70
     0
  9
$MIRRTEXT
 70
     1
  9
$LTSCALE
 40
1.0
  9
$ATTMODE
 70
     1
  9
$TEXTSIZE
 40
3.5
  9
$TRACEWID
 40
1.0
  9
$TEXTSTYLE
  7
Standard
  9
$CLAYER
  8
0
  9
$CELTYPE
  6
ByLayer
  9
$CECOLOR
 62
   256
  9
$CELTSCALE
 40
1.0
  9
$DISPSILH
 70
     0
  9
$DIMSCALE
 40
1.0
  9
$DIMASZ
 40
3.5
  9
$DIMEXO
 40
1.0
  9
$DIMDLI
 40
3.75
  9
$DIMRND
 40
0.0
  9
$DIMDLE
 40
0.0
  9
$DIMEXE
 40
1.0
  9
$DIMTP
 40
0.0
  9
$DIMTM
 40
0.0
  9
$DIMTXT
 40
3.5
  9
$DIMCEN
 40
2.5
  9
$DIMTSZ
 40
0.0
  9
$DIMTOL
 70
     0
  9
$DIMLIM
 70
     0
  9
$DIMTIH
 70
     1
  9
$DIMTOH
 70
     1
  9
$DIMSE1
 70
     0
  9
$DIMSE2
 70
     0
  9
$DIMTAD
 70
     1
  9
$DIMZIN
 70
     0
  9
$DIMBLK
  1

  9
$DIMASO
 70
     1
  9
$DIMSHO
 70
     1
  9
$DIMPOST
  1

  9
$DIMAPOST
  1

  9
$DIMALT
 70
     0
  9
$DIMALTD
 70
     3
  9
$DIMALTF
 40
0.0393700787
  9
$DIMLFAC
 40
1.0
  9
$DIMTOFL
 70
     1
  9
$DIMTVP
 40
0.0
  9
$DIMTIX
 70
     0
  9
$DIMSOXD
 70
     0
  9
$DIMSAH
 70
     0
  9
$DIMBLK1
  1

  9
$DIMBLK2
  1

  9
$DIMSTYLE
  2
ISO-25
  9
$DIMCLRD
 70
     0
  9
$DIMCLRE
 70
     0
  9
$DIMCLRT
 70
     0
  9
$DIMTFAC
 40
1.0
  9
$DIMGAP
 40
1.524
  9
$DIMJUST
 70
     0
  9
$DIMSD1
 70
     0
  9
$DIMSD2
 70
     0
  9
$DIMTOLJ
 70
     0
  9
$DIMTZIN
 70
     0
  9
$DIMALTZ
 70
     0
  9
$DIMALTTZ
 70
     0
  9
$DIMUPT
 70
     0
  9
$DIMDEC
 70
     2
  9
$DIMTDEC
 70
     2
  9
$DIMALTU
 70
     2
  9
$DIMALTTD
 70
     3
  9
$DIMTXSTY
  7
Standard
  9
$DIMAUNIT
 70
     0
  9
$DIMADEC
 70
     2
  9
$DIMALTRND
 40
0.0
  9
$DIMAZIN
 70
     0
  9
$DIMDSEP
 70
    44
  9
$DIMATFIT
 70
     3
  9
$DIMFRAC
 70
     0
  9
$DIMLDRBLK
  1

  9
$DIMLUNIT
 70
     2
  9
$DIMLWD
 70
    -2
  9
$DIMLWE
 70
    -2
  9
$DIMTMOVE
 70
     0
  9
$LUNITS
 70
     2
  9
$LUPREC
 70
     2
  9
$SKETCHINC
 40
1.0
  9
$FILLETRAD
 40
10.0
  9
$AUNITS
 70
     0
  9
$AUPREC
 70
     2
  9
$MENU
  1
.
  9
$ELEVATION
 40
0.0
  9
$PELEVATION
 40
0.0
  9
$THICKNESS
 40
0.0
  9
$LIMCHECK
 70
     0
  9
$CHAMFERA
 40
0.0
  9
$CHAMFERB
 40
0.0
  9
$CHAMFERC
 40
0.0
  9
$CHAMFERD
 40
0.0
  9
$SKPOLY
 70
     0
  9
$TDCREATE
 40
2458985.698740972
  9
$TDUCREATE
 40
2458985.573740972
  9
$TDUPDATE
 40
2458985.698741354
  9
$TDUUPDATE
 40
2458985.573741354
  9
$TDINDWG
 40
0.0000000116
  9
$TDUSRTIMER
 40
0.0000000116
  9
$USRTIMER
 70
     1
  9
$ANGBASE
 50
0.0
  9
$ANGDIR
 70
     0
  9
$PDMODE
 70
     0
  9
$PDSIZE
 40
-1.0
  9
$PLINEWID
 40
0.0
  9
$SPLFRAME
 70
     0
  9
$SPLINETYPE
 70
     6
  9
$SPLINESEGS
 70
     8
  9
$HANDSEED
  5
EB
  9
$SURFTAB1
 70
     6
  9
$SURFTAB2
 70
     6
  9
$SURFTYPE
 70
     6
  9
$SURFU
 70
     6
  9
$SURFV
 70
     6
  9
$UCSBASE
  2

  9
$UCSNAME
  2

  9
$UCSORG
 10
0.0
 20
0.0
 30
0.0
  9
$UCSXDIR
 10
1.0
 20
0.0
 30
0.0
  9
$UCSYDIR
 10
0.0
 20
1.0
 30
0.0
  9
$UCSORTHOREF
  2

  9
$UCSORTHOVIEW
 70
     0
  9
$UCSORGTOP
 10
0.0
 20
0.0
 30
0.0
  9
$UCSORGBOTTOM
 10
0.0
 20
0.0
 30
0.0
  9
$UCSORGLEFT
 10
0.0
 20
0.0
 30
0.0
  9
$UCSORGRIGHT
 10
0.0
 20
0.0
 30
0.0
  9
$UCSORGFRONT
 10
0.0
 20
0.0
 30
0.0
  9
$UCSORGBACK
 10
0.0
 20
0.0
 30
0.0
  9
$PUCSBASE
  2

  9
$PUCSNAME
  2

  9
$PUCSORG
 10
0.0
 20
0.0
 30
0.0
  9
$PUCSXDIR
 10
1.0
 20
0.0
 30
0.0
  9
$PUCSYDIR
 10
0.0
 20
1.0
 30
0.0
  9
$PUCSORTHOREF
  2

  9
$PUCSORTHOVIEW
 70
     0
  9
$PUCSORGTOP
 10
0.0
 20
0.0
 30
0.0
  9
$PUCSORGBOTTOM
 10
0.0
 20
0.0
 30
0.0
  9
$PUCSORGLEFT
 10
0.0
 20
0.0
 30
0.0
  9
$PUCSORGRIGHT
 10
0.0
 20
0.0
 30
0.0
  9
$PUCSORGFRONT
 10
0.0
 20
0.0
 30
0.0
  9
$PUCSORGBACK
 10
0.0
 20
0.0
 30
0.0
  9
$USERI1
 70
     0
  9
$USERI2
 70
     0
  9
$USERI3
 70
     0
  9
$USERI4
 70
     0
  9
$USERI5
 70
     0
  9
$USERR1
 40
0.0
  9
$USERR2
 40
0.0
  9
$USERR3
 40
0.0
  9
$USERR4
 40
0.0
  9
$USERR5
 40
0.0
  9
$WORLDVIEW
 70
     1
  9
$SHADEDGE
 70
     3
  9
$SHADEDIF
 70
    70
  9
$TILEMODE
 70
     1
  9
$MAXACTVP
 70
    64
  9
$PINSBASE
 10
0.0
 20
0.0
 30
0.0
  9
$PLIMCHECK
 70
     0
  9
$PEXTMIN
 10
1.0000000000E+20
 20
1.0000000000E+20
 30
1.0000000000E+20
  9
$PEXTMAX
 10
-1.0000000000E+20
 20
-1.0000000000E+20
 30
-1.0000000000E+20
  9
$PLIMMIN
 10
0.0
 20
0.0
  9
$PLIMMAX
 10
420.0
 20
297.0
  9
$UNITMODE
 70
     0
  9
$VISRETAIN
 70
     1
  9
$PLINEGEN
 70
     0
  9
$PSLTSCALE
 70
     1
  9
$TREEDEPTH
 70
  3020
  9
$CMLSTYLE
  2
Standard
  9
$CMLJUST
 70
     0
  9
$CMLSCALE
 40
20.0
  9
$PROXYGRAPHICS
 70
     1
  9
$MEASUREMENT
 70
     1
  9
$CELWEIGHT
370
    -1
  9
$ENDCAPS
280
     0
  9
$JOINSTYLE
280
     0
  9
$LWDISPLAY
290
     1
  9
$INSUNITS
 70
     4
  9
$HYPERLINKBASE
  1

  9
$STYLESHEET
  1

  9
$XEDIT
290
     1
  9
$CEPSNTYPE
380
     0
  9
$PSTYLEMODE
290
     1
  9
$FINGERPRINTGUID
  2
{99f4b783-4468-4278-9c2d-b71457be30a3}
  9
$VERSIONGUID
  2
{FAEB1C32-E019-11D5-929B-00C0DF256EC4}
  9
$EXTNAMES
290
     1
  9
$PSVPSCALE
 40
0.0
  9
$OLESTARTUP
290
     0
  0
ENDSEC
  0
SECTION
  2
CLASSES
  0
CLASS
  1
ACDBDICTIONARYWDFLT
  2
AcDbDictionaryWithDefault
  3
ObjectDBX Classes
 90
        0
280
     0
281
     0
  0
CLASS
  1
VISUALSTYLE
  2
AcDbVisualStyle
  3
ObjectDBX Classes
 90
     4095
280
     0
281
     0
  0
CLASS
  1
MATERIAL
  2
AcDbMaterial
  3
ObjectDBX Classes
 90
     1153
280
     0
281
     0
  0
CLASS
  1
SCALE
  2
AcDbScale
  3
ObjectDBX Classes
 90
     1153
280
     0
281
     0
  0
CLASS
  1
TABLESTYLE
  2
AcDbTableStyle
  3
ObjectDBX Classes
 90
     4095
280
     0
281
     0
  0
CLASS
  1
MLEADERSTYLE
  2
AcDbMLeaderStyle
  3
ACDB_MLEADERSTYLE_CLASS
 90
     4095
280
     0
281
     0
  0
CLASS
  1
SUN
  2
AcDbSun
  3
SCENEOE
 90
     1153
280
     0
281
     0
  0
CLASS
  1
ACDBPLACEHOLDER
  2
AcDbPlaceHolder
  3
ObjectDBX Classes
 90
        0
280
     0
281
     0
  0
CLASS
  1
LAYOUT
  2
AcDbLayout
  3
ObjectDBX Classes
 90
        0
280
     0
281
     0
  0
ENDSEC
  0
SECTION
  2
TABLES
  0
TABLE
  2
VPORT
  5
8
330
0
100
AcDbSymbolTable
 70
     1
  0
VPORT
  5
29
330
8
100
AcDbSymbolTableRecord
100
AcDbViewportTableRecord
  2
*Active
 70
     0
 10
0.0
 20
0.0
 11
1.0
 21
1.0
 12
139.7
 22
107.95
 13
0.0
 23
0.0
 14
10.0
 24
10.0
 15
10.0
 25
10.0
 16
0.0
 26
0.0
 36
1.0
 17
0.0
 27
0.0
 37
0.0
 40
215.9
 41
1.2941176471
 42
50.0
 43
0.0
 44
0.0
 50
0.0
 51
0.0
 71
     0
 72
  2000
 73
     1
 74
     3
 75
     0
 76
     0
 77
     0
 78
     0
281
     0
 65
     1
110
0.0
120
0.0
130
0.0
111
1.0
121
0.0
131
0.0
112
0.0
122
1.0
132
0.0
 79
     0
146
0.0
  0
ENDTAB
  0
TABLE
  2
LTYPE
  5
5
330
0
100
AcDbSymbolTable
 70
     6
  0
LTYPE
  5
14
330
5
100
AcDbSymbolTableRecord
100
AcDbLinetypeTableRecord
  2
ByBlock
 70
     0
  3

 72
    65
 73
     0
 40
0.0
  0
LTYPE
  5
15
330
5
100
AcDbSymbolTableRecord
100
AcDbLinetypeTableRecord
  2
ByLayer
 70
     0
  3

 72
    65
 73
     0
 40
0.0
  0
LTYPE
  5
16
330
5
100
AcDbSymbolTableRecord
100
AcDbLinetypeTableRecord
  2
Continuous
 70
     0
  3
Solid line
 72
    65
 73
     0
 40
0.0
  0
LTYPE
  5
6E
330
5
100
AcDbSymbolTableRecord
100
AcDbLinetypeTableRecord
  2
HIDDEN
 70
     0
  3
Hidden __ __ __ __ __ __ __ __ __ __ __ __ __ __
 72
    65
 73
     2
 40
1.905
 49
1.27
 74
     0
 49
-0.635
 74
     0
  0
LTYPE
  5
6F
330
5
100
AcDbSymbolTableRecord
100
AcDbLinetypeTableRecord
  2
PHANTOM
 70
     0
  3
Phantom ______  __  __  ______  __  __  ______
 72
    65
 73
     6
 40
12.7
 49
6.35
 74
     0
 49
-1.27
 74
     0
 49
1.27
 74
     0
 49
-1.27
 74
     0
 49
1.27
 74
     0
 49
-1.27
 74
     0
  0
LTYPE
  5
70
330
5
100
AcDbSymbolTableRecord
100
AcDbLinetypeTableRecord
  2
CENTER
 70
     0
  3
Center ____ _ ____ _ ____ _ ____ _ ____ _ ____
 72
    65
 73
     4
 40
10.16
 49
6.35
 74
     0
 49
-1.27
 74
     0
 49
1.27
 74
     0
 49
-1.27
 74
     0
  0
LTYPE
  5
71
330
5
100
AcDbSymbolTableRecord
100
AcDbLinetypeTableRecord
  2
CENTERX2
 70
     0
  3
Center (2x) ________  __  ________  __  _____
 72
    65
 73
     4
 40
20.32
 49
12.7
 74
     0
 49
-2.54
 74
     0
 49
2.54
 74
     0
 49
-2.54
 74
     0
  0
LTYPE
  5
72
330
5
100
AcDbSymbolTableRecord
100
AcDbLinetypeTableRecord
  2
DOT2
 70
     0
  3
Dot (.5x) ........................................
 72
    65
 73
     2
 40
0.635
 49
0.0
 74
     0
 49
-0.635
 74
     0
  0
ENDTAB
  0
TABLE
  2
LAYER
  5
2
330
0
100
AcDbSymbolTable
 70
    17
  0
LAYER
  5
10
330
2
100
AcDbSymbolTableRecord
100
AcDbLayerTableRecord
  2
0
 70
     0
 62
     7
  6
Continuous
370
    -3
390
F
  0
LAYER
  5
73
330
2
100
AcDbSymbolTableRecord
100
AcDbLayerTableRecord
  2
FORMAT
 70
     0
 62
     7
  6
Continuous
370
    -3
390
F
  0
LAYER
  5
74
330
2
100
AcDbSymbolTableRecord
100
AcDbLayerTableRecord
  2
YARDIMCI_GEOMETRI
 70
     0
 62
    -6
  6
Continuous
290
     0
370
    -3
390
F
  0
LAYER
  5
75
330
2
100
AcDbSymbolTableRecord
100
AcDbLayerTableRecord
  2
SAYFA_CERCEVESI
 70
     0
 62
     7
  6
Continuous
370
    25
390
F
  0
LAYER
  5
76
330
2
100
AcDbSymbolTableRecord
100
AcDbLayerTableRecord
  2
ANTET
 70
     0
 62
     7
  6
Continuous
370
    -3
390
F
  0
LAYER
  5
77
330
2
100
AcDbSymbolTableRecord
100
AcDbLayerTableRecord
  2
OLCU
 70
     0
 62
   150
  6
Continuous
370
    -3
390
F
  0
LAYER
  5
78
330
2
100
AcDbSymbolTableRecord
100
AcDbLayerTableRecord
  2
METIN
 70
     0
 62
    96
  6
Continuous
370
    -3
390
F
  0
LAYER
  5
79
330
2
100
AcDbSymbolTableRecord
100
AcDbLayerTableRecord
  2
BALON
 70
     0
 62
     5
  6
Continuous
370
    -3
390
F
  0
LAYER
  5
7A
330
2
100
AcDbSymbolTableRecord
100
AcDbLayerTableRecord
  2
VURGU
 70
     0
 62
     7
  6
Continuous
370
    -3
390
F
  0
LAYER
  5
7B
330
2
100
AcDbSymbolTableRecord
100
AcDbLayerTableRecord
  2
SILIK
 70
     0
 62
     7
  6
Continuous
370
    -3
390
F
  0
LAYER
  5
7C
330
2
100
AcDbSymbolTableRecord
100
AcDbLayerTableRecord
  2
MODEL
 70
     0
 62
     7
  6
Continuous
370
    -3
390
F
  0
LAYER
  5
7D
330
2
100
AcDbSymbolTableRecord
100
AcDbLayerTableRecord
  2
DETAYLANDıRMA
 70
     0
 62
   190
  6
Continuous
370
    -3
390
F
  0
LAYER
  5
7E
330
2
100
AcDbSymbolTableRecord
100
AcDbLayerTableRecord
  2
TOLERANS
 70
     0
 62
   230
  6
Continuous
370
    -3
390
F
  0
LAYER
  5
7F
330
2
100
AcDbSymbolTableRecord
100
AcDbLayerTableRecord
  2
MERKEZ_CIZGILERI
 70
     0
 62
    30
  6
Continuous
370
    -3
390
F
  0
LAYER
  5
80
330
2
100
AcDbSymbolTableRecord
100
AcDbLayerTableRecord
  2
KESIT-DETAY_CIZGILERI
 70
     0
 62
     7
  6
Continuous
370
    -3
390
F
  0
LAYER
  5
81
330
2
100
AcDbSymbolTableRecord
100
AcDbLayerTableRecord
  2
\U+041E\U+0421\U+0415\U+0412\U+042B\U+0415
 70
     0
 62
     7
  6
Continuous
370
    -3
390
F
  0
LAYER
  5
82
330
2
100
AcDbSymbolTableRecord
100
AcDbLayerTableRecord
  2
\U+0412\U+041E\U+0414\U+042F\U+041D\U+042B\U+0415_\U+0417\U+041D\U+0410\U+041A\U+0418
 70
     0
 62
    11
  6
Continuous
370
    -3
390
F
  0
ENDTAB
  0
TABLE
  2
STYLE
  5
3
330
0
100
AcDbSymbolTable
 70
     1
  0
STYLE
  5
11
330
3
100
AcDbSymbolTableRecord
100
AcDbTextStyleTableRecord
  2
Standard
 70
     0
 40
0.0
 41
1.0
 50
0.0
 71
     0
 42
3.5
  3
txt
  4

  0
ENDTAB
  0
TABLE
  2
VIEW
  5
6
330
0
100
AcDbSymbolTable
 70
     0
  0
ENDTAB
  0
TABLE
  2
UCS
  5
7
330
0
100
AcDbSymbolTable
 70
     0
  0
ENDTAB
  0
TABLE
  2
APPID
  5
9
330
0
100
AcDbSymbolTable
 70
     1
  0
APPID
  5
12
330
9
100
AcDbSymbolTableRecord
100
AcDbRegAppTableRecord
  2
ACAD
 70
     0
  0
ENDTAB
  0
TABLE
  2
DIMSTYLE
  5
A
330
0
100
AcDbSymbolTable
 70
     1
100
AcDbDimStyleTable
  0
DIMSTYLE
105
27
330
A
100
AcDbSymbolTableRecord
100
AcDbDimStyleTableRecord
  2
ISO-25
 70
     0
 41
2.5
 42
0.625
 43
3.75
 44
1.25
 73
     0
 74
     0
 77
     1
 78
     8
140
2.5
141
2.5
143
0.0393700787
147
0.625
171
     3
172
     1
178
     0
271
     2
272
     2
274
     3
278
    44
283
     0
284
     8
340
11
  0
ENDTAB
  0
TABLE
  2
BLOCK_RECORD
  5
1
330
0
100
AcDbSymbolTable
 70
     2
  0
BLOCK_RECORD
  5
1F
330
1
100
AcDbSymbolTableRecord
100
AcDbBlockTableRecord
  2
*Model_Space
340
22
  0
BLOCK_RECORD
  5
1B
330
1
100
AcDbSymbolTableRecord
100
AcDbBlockTableRecord
  2
*Paper_Space
340
1E
  0
BLOCK_RECORD
  5
23
330
1
100
AcDbSymbolTableRecord
100
AcDbBlockTableRecord
  2
*Paper_Space0
340
26
  0
BLOCK_RECORD
  5
88
330
1
100
AcDbSymbolTableRecord
100
AcDbBlockTableRecord
  2
SW_CENTERMARKSYMBOL_0
340
0
102
{BLKREFS
331
93
102
}
  0
ENDTAB
  0
ENDSEC
  0
SECTION
  2
BLOCKS
  0
BLOCK
  5
20
330
1F
100
AcDbEntity
  8
0
100
AcDbBlockBegin
  2
*Model_Space
 70
     0
 10
0.0
 20
0.0
 30
0.0
  3
*Model_Space
  1

  0
ENDBLK
  5
21
330
1F
100
AcDbEntity
  8
0
100
AcDbBlockEnd
  0
BLOCK
  5
1C
330
1B
100
AcDbEntity
 67
     1
  8
0
100
AcDbBlockBegin
  2
*Paper_Space
 70
     0
 10
0.0
 20
0.0
 30
0.0
  3
*Paper_Space
  1

  0
ENDBLK
  5
1D
330
1B
100
AcDbEntity
 67
     1
  8
0
100
AcDbBlockEnd
  0
BLOCK
  5
24
330
23
100
AcDbEntity
  8
0
100
AcDbBlockBegin
  2
*Paper_Space0
 70
     0
 10
0.0
 20
0.0
 30
0.0
  3
*Paper_Space0
  1

  0
ENDBLK
  5
25
330
23
100
AcDbEntity
  8
0
100
AcDbBlockEnd
  0
BLOCK
  5
89
330
88
100
AcDbEntity
  8
0
100
AcDbBlockBegin
  2
SW_CENTERMARKSYMBOL_0
 70
     0
 10
0.0
 20
0.0
 30
0.0
  3
SW_CENTERMARKSYMBOL_0
  1

  0
LINE
  5
8B
330
88
100
AcDbEntity
  8
FORMAT
 62
     0
100
AcDbLine
 10
0.0
 20
0.0
 30
0.0
 11
0.0
 21
2.5
 31
0.0
  0
LINE
  5
8C
330
88
100
AcDbEntity
  8
FORMAT
 62
     0
100
AcDbLine
 10
0.0
 20
0.0
 30
0.0
 11
-2.5
 21
0.0
 31
0.0
  0
LINE
  5
8D
330
88
100
AcDbEntity
  8
FORMAT
 62
     0
100
AcDbLine
 10
0.0
 20
0.0
 30
0.0
 11
0.0
 21
-2.5
 31
0.0
  0
LINE
  5
8E
330
88
100
AcDbEntity
  8
FORMAT
 62
     0
100
AcDbLine
 10
0.0
 20
0.0
 30
0.0
 11
2.5
 21
0.0
 31
0.0
  0
LINE
  5
8F
330
88
100
AcDbEntity
  8
FORMAT
 62
     0
100
AcDbLine
 10
0.0
 20
5.0
 30
0.0
 11
0.0
 21
40.0
 31
0.0
  0
LINE
  5
90
330
88
100
AcDbEntity
  8
FORMAT
 62
     0
100
AcDbLine
 10
-5.0
 20
0.0
 30
0.0
 11
-40.0
 21
0.0
 31
0.0
  0
LINE
  5
91
330
88
100
AcDbEntity
  8
FORMAT
 62
     0
100
AcDbLine
 10
0.0
 20
-5.0
 30
0.0
 11
0.0
 21
-40.0
 31
0.0
  0
LINE
  5
92
330
88
100
AcDbEntity
  8
FORMAT
 62
     0
100
AcDbLine
 10
5.0
 20
0.0
 30
0.0
 11
40.0
 21
0.0
 31
0.0
  0
ENDBLK
  5
8A
330
88
100
AcDbEntity
  8
0
100
AcDbBlockEnd
  0
ENDSEC
  0
SECTION
  2
ENTITIES
  0
CIRCLE
  5
83
330
1F
100
AcDbEntity
  8
0
  6
Continuous
 62
     7
370
    25
100
AcDbCircle
 10
139.395004093
 20
107.5851680021
 30
0.0
 40
37.50000000000001
  0
CIRCLE
  5
84
330
1F
100
AcDbEntity
  8
0
  6
Continuous
 62
     7
370
    25
100
AcDbCircle
 10
139.395004093
 20
107.5851680021
 30
0.0
 40
30.7
  0
CIRCLE
  5
85
330
1F
100
AcDbEntity
  8
0
  6
Continuous
 62
     7
370
    25
100
AcDbCircle
 10
139.395004093
 20
107.5851680021
 30
0.0
 40
30.55071250072666
  0
CIRCLE
  5
86
330
1F
100
AcDbEntity
  8
0
  6
Continuous
 62
     7
370
    25
100
AcDbCircle
 10
139.395004093
 20
107.5851680021
 30
0.0
 40
20.54928749927336
  0
CIRCLE
  5
87
330
1F
100
AcDbEntity
  8
0
  6
Continuous
 62
     7
370
    25
100
AcDbCircle
 10
139.395004093
 20
107.5851680021
 30
0.0
 40
20.40000000000001
  0
INSERT
  5
93
330
1F
100
AcDbEntity
  8
FORMAT
 62
     7
100
AcDbBlockReference
  2
SW_CENTERMARKSYMBOL_0
 10
139.395004093
 20
107.5851680021
 30
0.0
  0
ARC
  5
94
330
1F
100
AcDbEntity
  8
0
  6
Continuous
 62
     7
370
    25
100
AcDbCircle
 10
-62.9214081374
 20
143.0851680021
 30
0.0
 40
2.000000000000028
100
AcDbArc
 50
75.9637565321
 51
90.0
  0
ARC
  5
95
330
1F
100
AcDbEntity
  8
0
  6
Continuous
 62
     7
370
    25
100
AcDbCircle
 10
-62.9214081374
 20
72.0851680021
 30
0.0
 40
2.000000000000007
100
AcDbArc
 50
270.0
 51
284.0362434679
  0
LINE
  5
96
330
1F
100
AcDbEntity
  8
0
  6
Continuous
 62
     7
370
    25
100
AcDbLine
 10
-62.9214073063
 20
145.0851694922
 30
0.0
 11
-132.6751957179
 21
145.0851694922
 31
0.0
  0
LINE
  5
97
330
1F
100
AcDbEntity
  8
0
  6
Continuous
 62
     7
370
    25
100
AcDbLine
 10
-132.6751957179
 20
70.085166512
 30
0.0
 11
-62.9214073063
 21
70.085166512
 31
0.0
  0
LINE
  5
98
330
1F
100
AcDbEntity
  8
0
  6
Continuous
 62
     7
370
    25
100
AcDbLine
 10
-62.4363372565
 20
70.1448829155
 30
0.0
 11
-12.9140565635
 21
82.5254530887
 31
0.0
  0
LINE
  5
99
330
1F
100
AcDbEntity
  8
0
  6
Continuous
 62
     7
370
    25
100
AcDbLine
 10
-12.9140565635
 20
132.6448829155
 30
0.0
 11
-62.4363372565
 21
145.0254530887
 31
0.0
  0
ARC
  5
9A
330
1F
100
AcDbEntity
  8
0
  6
Continuous
 62
     7
370
    25
100
AcDbCircle
 10
-12.4289856349
 20
134.5851680021
 30
0.0
 40
2.0
100
AcDbArc
 50
255.9637565321
 51
270.0
  0
ARC
  5
9B
330
1F
100
AcDbEntity
  8
0
  6
Continuous
 62
     7
370
    25
100
AcDbCircle
 10
-12.4289856349
 20
80.5851680021
 30
0.0
 40
1.999999999999993
100
AcDbArc
 50
90.0
 51
104.0362434679
  0
LINE
  5
9C
330
1F
100
AcDbEntity
  8
0
  6
Continuous
 62
     7
370
    25
100
AcDbLine
 10
42.3248013018
 20
132.5851683746
 30
0.0
 11
-12.4289865137
 21
132.5851683746
 31
0.0
  0
LINE
  5
9D
330
1F
100
AcDbEntity
  8
0
  6
Continuous
 62
     7
370
    25
100
AcDbLine
 10
-12.4289865137
 20
82.5851676296
 30
0.0
 11
42.3248013018
 21
82.5851676296
 31
0.0
  0
LINE
  5
9E
330
1F
100
AcDbEntity
  8
0
  6
Continuous
 62
     7
370
    25
100
AcDbLine
 10
-132.6751957179
 20
145.0851694922
 30
0.0
 11
-132.6751957179
 21
70.085166512
 31
0.0
  0
LINE
  5
9F
330
1F
100
AcDbEntity
  8
0
  6
Continuous
 62
     7
370
    25
100
AcDbLine
 10
42.3248013018
 20
132.5851683746
 30
0.0
 11
42.3248013018
 21
82.5851676296
 31
0.0
  0
LINE
  5
A0
330
1F
100
AcDbEntity
  8
0
  6
Continuous
 62
     1
370
    25
100
AcDbLine
 10
-62.4363372565
 20
145.0254530887
 30
0.0
 11
-62.4363372565
 21
70.1448829155
 31
0.0
  0
LINE
  5
A1
330
1F
100
AcDbEntity
  8
0
  6
Continuous
 62
     1
370
    25
100
AcDbLine
 10
-62.9214073063
 20
145.0851694922
 30
0.0
 11
-62.9214073063
 21
70.085166512
 31
0.0
  0
LINE
  5
A2
330
1F
100
AcDbEntity
  8
0
  6
Continuous
 62
     1
370
    25
100
AcDbLine
 10
-12.9140565635
 20
132.6448829155
 30
0.0
 11
-12.9140565635
 21
82.5254530887
 31
0.0
  0
LINE
  5
A3
330
1F
100
AcDbEntity
  8
0
  6
Continuous
 62
     1
370
    25
100
AcDbLine
 10
-12.4289865137
 20
132.5851683746
 30
0.0
 11
-12.4289865137
 21
82.5851676296
 31
0.0
  0
ARC
  5
A4
330
1F
100
AcDbEntity
  8
0
  6
Continuous
 62
     7
370
    25
100
AcDbCircle
 10
338.3523531118
 20
72.0851680021
 30
0.0
 40
2.0
100
AcDbArc
 50
255.9637565321
 51
270.0
  0
ARC
  5
A5
330
1F
100
AcDbEntity
  8
0
  6
Continuous
 62
     7
370
    25
100
AcDbCircle
 10
338.3523531118
 20
143.0851680021
 30
0.0
 40
2.000000000000028
100
AcDbArc
 50
90.0
 51
104.0362434679
  0
LINE
  5
A6
330
1F
100
AcDbEntity
  8
0
  6
Continuous
 62
     7
370
    25
100
AcDbLine
 10
338.3523522807
 20
70.085166512
 30
0.0
 11
408.1061406924
 21
70.085166512
 31
0.0
  0
LINE
  5
A7
330
1F
100
AcDbEntity
  8
0
  6
Continuous
 62
     7
370
    25
100
AcDbLine
 10
408.1061406924
 20
145.0851694922
 30
0.0
 11
338.3523522807
 21
145.0851694922
 31
0.0
  0
LINE
  5
A8
330
1F
100
AcDbEntity
  8
0
  6
Continuous
 62
     7
370
    25
100
AcDbLine
 10
337.867282231
 20
145.0254530887
 30
0.0
 11
288.3450015379
 21
132.6448829155
 31
0.0
  0
LINE
  5
A9
330
1F
100
AcDbEntity
  8
0
  6
Continuous
 62
     7
370
    25
100
AcDbLine
 10
288.3450015379
 20
82.5254530887
 30
0.0
 11
337.867282231
 21
70.1448829155
 31
0.0
  0
ARC
  5
AA
330
1F
100
AcDbEntity
  8
0
  6
Continuous
 62
     7
370
    25
100
AcDbCircle
 10
287.8599306094
 20
80.5851680021
 30
0.0
 40
1.999999999999997
100
AcDbArc
 50
75.9637565321
 51
90.0
  0
ARC
  5
AB
330
1F
100
AcDbEntity
  8
0
  6
Continuous
 62
     7
370
    25
100
AcDbCircle
 10
287.8599306094
 20
134.5851680021
 30
0.0
 40
2.0
100
AcDbArc
 50
270.0
 51
284.0362434679
  0
LINE
  5
AC
330
1F
100
AcDbEntity
  8
0
  6
Continuous
 62
     7
370
    25
100
AcDbLine
 10
233.1061436726
 20
82.5851676296
 30
0.0
 11
287.8599314882
 21
82.5851676296
 31
0.0
  0
LINE
  5
AD
330
1F
100
AcDbEntity
  8
0
  6
Continuous
 62
     7
370
    25
100
AcDbLine
 10
287.8599314882
 20
132.5851683746
 30
0.0
 11
233.1061436726
 21
132.5851683746
 31
0.0
  0
LINE
  5
AE
330
1F
100
AcDbEntity
  8
0
  6
Continuous
 62
     7
370
    25
100
AcDbLine
 10
408.1061406924
 20
107.5851680021
 30
0.0
 11
408.1061406924
 21
145.0851694922
 31
0.0
  0
LINE
  5
AF
330
1F
100
AcDbEntity
  8
0
  6
Continuous
 62
     7
370
    25
100
AcDbLine
 10
408.1061406924
 20
70.085166512
 30
0.0
 11
408.1061406924
 21
107.5851680021
 31
0.0
  0
LINE
  5
B0
330
1F
100
AcDbEntity
  8
0
  6
Continuous
 62
     7
370
    25
100
AcDbLine
 10
233.1061436726
 20
107.5851680021
 30
0.0
 11
233.1061436726
 21
132.5851683746
 31
0.0
  0
LINE
  5
B1
330
1F
100
AcDbEntity
  8
0
  6
Continuous
 62
     7
370
    25
100
AcDbLine
 10
233.1061436726
 20
82.5851676296
 30
0.0
 11
233.1061436726
 21
107.5851680021
 31
0.0
  0
LINE
  5
B2
330
1F
100
AcDbEntity
  8
0
  6
Continuous
 62
     1
370
    25
100
AcDbLine
 10
337.867282231
 20
107.5851680021
 30
0.0
 11
337.867282231
 21
145.0254530887
 31
0.0
  0
LINE
  5
B3
330
1F
100
AcDbEntity
  8
0
  6
Continuous
 62
     1
370
    25
100
AcDbLine
 10
337.867282231
 20
70.1448829155
 30
0.0
 11
337.867282231
 21
107.5851680021
 31
0.0
  0
LINE
  5
B4
330
1F
100
AcDbEntity
  8
0
  6
Continuous
 62
     1
370
    25
100
AcDbLine
 10
338.3523522807
 20
107.5851680021
 30
0.0
 11
338.3523522807
 21
145.0851694922
 31
0.0
  0
LINE
  5
B5
330
1F
100
AcDbEntity
  8
0
  6
Continuous
 62
     1
370
    25
100
AcDbLine
 10
338.3523522807
 20
70.085166512
 30
0.0
 11
338.3523522807
 21
107.5851680021
 31
0.0
  0
LINE
  5
B6
330
1F
100
AcDbEntity
  8
0
  6
Continuous
 62
     1
370
    25
100
AcDbLine
 10
288.3450015379
 20
107.5851680021
 30
0.0
 11
288.3450015379
 21
132.6448829155
 31
0.0
  0
LINE
  5
B7
330
1F
100
AcDbEntity
  8
0
  6
Continuous
 62
     1
370
    25
100
AcDbLine
 10
288.3450015379
 20
82.5254530887
 30
0.0
 11
288.3450015379
 21
107.5851680021
 31
0.0
  0
LINE
  5
B8
330
1F
100
AcDbEntity
  8
0
  6
Continuous
 62
     1
370
    25
100
AcDbLine
 10
287.8599314882
 20
107.5851680021
 30
0.0
 11
287.8599314882
 21
132.5851683746
 31
0.0
  0
LINE
  5
B9
330
1F
100
AcDbEntity
  8
0
  6
Continuous
 62
     1
370
    25
100
AcDbLine
 10
287.8599314882
 20
82.5851676296
 30
0.0
 11
287.8599314882
 21
107.5851680021
 31
0.0
  0
ARC
  5
BA
330
1F
100
AcDbEntity
  8
0
  6
Continuous
 62
     7
370
    25
100
AcDbCircle
 10
174.895004093
 20
306.1013515609
 30
0.0
 40
2.000000000000011
100
AcDbArc
 50
345.9637565321
 51
0.0
  0
ARC
  5
BB
330
1F
100
AcDbEntity
  8
0
  6
Continuous
 62
     7
370
    25
100
AcDbCircle
 10
103.895004093
 20
306.1013515609
 30
0.0
 40
2.000000000000014
100
AcDbArc
 50
180.0
 51
194.0362434679
  0
LINE
  5
BC
330
1F
100
AcDbEntity
  8
0
  6
Continuous
 62
     7
370
    25
100
AcDbLine
 10
176.8950055832
 20
306.1013507298
 30
0.0
 11
176.8950055832
 21
375.8551391414
 31
0.0
  0
LINE
  5
BD
330
1F
100
AcDbEntity
  8
0
  6
Continuous
 62
     7
370
    25
100
AcDbLine
 10
101.8950026029
 20
375.8551391414
 30
0.0
 11
101.8950026029
 21
306.1013507298
 31
0.0
  0
LINE
  5
BE
330
1F
100
AcDbEntity
  8
0
  6
Continuous
 62
     7
370
    25
100
AcDbLine
 10
101.9547190064
 20
305.61628068
 30
0.0
 11
114.3352891797
 21
256.093999987
 31
0.0
  0
LINE
  5
BF
330
1F
100
AcDbEntity
  8
0
  6
Continuous
 62
     7
370
    25
100
AcDbLine
 10
164.4547190064
 20
256.093999987
 30
0.0
 11
176.8352891797
 21
305.61628068
 31
0.0
  0
ARC
  5
C0
330
1F
100
AcDbEntity
  8
0
  6
Continuous
 62
     7
370
    25
100
AcDbCircle
 10
166.395004093
 20
255.6089290584
 30
0.0
 40
2.000000000000004
100
AcDbArc
 50
165.9637565321
 51
180.0
  0
ARC
  5
C1
330
1F
100
AcDbEntity
  8
0
  6
Continuous
 62
     7
370
    25
100
AcDbCircle
 10
112.395004093
 20
255.6089290584
 30
0.0
 40
2.000000000000004
100
AcDbArc
 50
0.0
 51
14.0362434679
  0
LINE
  5
C2
330
1F
100
AcDbEntity
  8
0
  6
Continuous
 62
     7
370
    25
100
AcDbLine
 10
164.3950044656
 20
200.8551421216
 30
0.0
 11
164.3950044656
 21
255.6089299372
 31
0.0
  0
LINE
  5
C3
330
1F
100
AcDbEntity
  8
0
  6
Continuous
 62
     7
370
    25
100
AcDbLine
 10
114.3950037205
 20
255.6089299372
 30
0.0
 11
114.3950037205
 21
200.8551421216
 31
0.0
  0
LINE
  5
C4
330
1F
100
AcDbEntity
  8
0
  6
Continuous
 62
     7
370
    25
100
AcDbLine
 10
176.8950055832
 20
375.8551391414
 30
0.0
 11
101.8950026029
 21
375.8551391414
 31
0.0
  0
LINE
  5
C5
330
1F
100
AcDbEntity
  8
0
  6
Continuous
 62
     7
370
    25
100
AcDbLine
 10
164.3950044656
 20
200.8551421216
 30
0.0
 11
114.3950037205
 21
200.8551421216
 31
0.0
  0
LINE
  5
C6
330
1F
100
AcDbEntity
  8
0
  6
Continuous
 62
     1
370
    25
100
AcDbLine
 10
176.8352891797
 20
305.61628068
 30
0.0
 11
101.9547190064
 21
305.61628068
 31
0.0
  0
LINE
  5
C7
330
1F
100
AcDbEntity
  8
0
  6
Continuous
 62
     1
370
    25
100
AcDbLine
 10
176.8950055832
 20
306.1013507298
 30
0.0
 11
101.8950026029
 21
306.1013507298
 31
0.0
  0
LINE
  5
C8
330
1F
100
AcDbEntity
  8
0
  6
Continuous
 62
     1
370
    25
100
AcDbLine
 10
164.4547190064
 20
256.093999987
 30
0.0
 11
114.3352891797
 21
256.093999987
 31
0.0
  0
LINE
  5
C9
330
1F
100
AcDbEntity
  8
0
  6
Continuous
 62
     1
370
    25
100
AcDbLine
 10
164.3950044656
 20
255.6089299372
 30
0.0
 11
114.3950037205
 21
255.6089299372
 31
0.0
  0
ARC
  5
CA
330
1F
100
AcDbEntity
  8
0
  6
Continuous
 62
     7
370
    25
100
AcDbCircle
 10
103.895004093
 20
-76.1972259117
 30
0.0
 40
2.000000000000014
100
AcDbArc
 50
165.9637565321
 51
180.0
  0
ARC
  5
CB
330
1F
100
AcDbEntity
  8
0
  6
Continuous
 62
     7
370
    25
100
AcDbCircle
 10
174.895004093
 20
-76.1972259117
 30
0.0
 40
2.000000000000024
100
AcDbArc
 50
0.0
 51
14.0362434679
  0
LINE
  5
CC
330
1F
100
AcDbEntity
  8
0
  6
Continuous
 62
     7
370
    25
100
AcDbLine
 10
101.8950026029
 20
-76.1972250806
 30
0.0
 11
101.8950026029
 21
-145.9510134922
 31
0.0
  0
LINE
  5
CD
330
1F
100
AcDbEntity
  8
0
  6
Continuous
 62
     7
370
    25
100
AcDbLine
 10
176.8950055832
 20
-145.9510134922
 30
0.0
 11
176.8950055832
 21
-76.1972250806
 31
0.0
  0
LINE
  5
CE
330
1F
100
AcDbEntity
  8
0
  6
Continuous
 62
     7
370
    25
100
AcDbLine
 10
176.8352891797
 20
-75.7121550308
 30
0.0
 11
164.4547190064
 21
-26.1898743378
 31
0.0
  0
LINE
  5
CF
330
1F
100
AcDbEntity
  8
0
  6
Continuous
 62
     7
370
    25
100
AcDbLine
 10
114.3352891797
 20
-26.1898743378
 30
0.0
 11
101.9547190064
 21
-75.7121550308
 31
0.0
  0
ARC
  5
D0
330
1F
100
AcDbEntity
  8
0
  6
Continuous
 62
     7
370
    25
100
AcDbCircle
 10
112.395004093
 20
-25.7048034092
 30
0.0
 40
1.999999999999993
100
AcDbArc
 50
345.9637565321
 51
0.0
  0
ARC
  5
D1
330
1F
100
AcDbEntity
  8
0
  6
Continuous
 62
     7
370
    25
100
AcDbCircle
 10
166.395004093
 20
-25.7048034092
 30
0.0
 40
1.999999999999993
100
AcDbArc
 50
180.0
 51
194.0362434679
  0
LINE
  5
D2
330
1F
100
AcDbEntity
  8
0
  6
Continuous
 62
     7
370
    25
100
AcDbLine
 10
114.3950037205
 20
29.0489835276
 30
0.0
 11
114.3950037205
 21
-25.704804288
 31
0.0
  0
LINE
  5
D3
330
1F
100
AcDbEntity
  8
0
  6
Continuous
 62
     7
370
    25
100
AcDbLine
 10
164.3950044656
 20
-25.704804288
 30
0.0
 11
164.3950044656
 21
29.0489835276
 31
0.0
  0
LINE
  5
D4
330
1F
100
AcDbEntity
  8
0
  6
Continuous
 62
     7
370
    25
100
AcDbLine
 10
101.8950026029
 20
-145.9510134922
 30
0.0
 11
176.8950055832
 21
-145.9510134922
 31
0.0
  0
LINE
  5
D5
330
1F
100
AcDbEntity
  8
0
  6
Continuous
 62
     7
370
    25
100
AcDbLine
 10
114.3950037205
 20
29.0489835276
 30
0.0
 11
164.3950044656
 21
29.0489835276
 31
0.0
  0
LINE
  5
D6
330
1F
100
AcDbEntity
  8
0
  6
Continuous
 62
     1
370
    25
100
AcDbLine
 10
101.9547190064
 20
-75.7121550308
 30
0.0
 11
176.8352891797
 21
-75.7121550308
 31
0.0
  0
LINE
  5
D7
330
1F
100
AcDbEntity
  8
0
  6
Continuous
 62
     1
370
    25
100
AcDbLine
 10
101.8950026029
 20
-76.1972250806
 30
0.0
 11
176.8950055832
 21
-76.1972250806
 31
0.0
  0
LINE
  5
D8
330
1F
100
AcDbEntity
  8
0
  6
Continuous
 62
     1
370
    25
100
AcDbLine
 10
114.3352891797
 20
-26.1898743378
 30
0.0
 11
164.4547190064
 21
-26.1898743378
 31
0.0
  0
LINE
  5
D9
330
1F
100
AcDbEntity
  8
0
  6
Continuous
 62
     1
370
    25
100
AcDbLine
 10
114.3950037205
 20
-25.704804288
 30
0.0
 11
164.3950044656
 21
-25.704804288
 31
0.0
  0
LINE
  5
DA
330
1F
100
AcDbEntity
  8
0
  6
Continuous
 62
     7
370
    25
100
AcDbLine
 10
306.4705215089
 20
-3.0859672243
 30
0.0
 11
257.1471447096
 21
25.3878121205
 31
0.0
  0
LINE
  5
DB
330
1F
100
AcDbEntity
  8
0
  6
Continuous
 62
     7
370
    25
100
AcDbLine
 10
219.6501920417
 20
-39.5658536832
 30
0.0
 11
268.973568841
 21
-68.0396330281
 31
0.0
  0
SPLINE
  5
DC
330
1F
100
AcDbEntity
  8
0
  6
Continuous
 62
     7
370
    25
100
AcDbSpline
210
0.0
220
0.0
230
1.0
 70
     8
 71
     3
 72
    11
 73
     7
 74
     0
 42
0.000000001
 43
0.00000001
 40
0.0
 40
0.0
 40
0.0
 40
0.0
 40
0.1179153774656613
 40
0.4196059371851416
 40
0.7193584061361677
 40
1.0
 40
1.0
 40
1.0
 40
1.0
 10
309.9307013804469
 20
-5.92442135153938
 30
0.0
 10
309.8141301734988
 20
-5.78882676678033
 30
0.0
 10
309.3993075134559
 20
-5.306308760749917
 30
0.0
 10
308.6031738711417
 20
-4.582276049550749
 30
0.0
 10
307.5777132988135
 20
-3.763626819625034
 30
0.0
 10
306.8439732747241
 20
-3.316870135968604
 30
0.0
 10
306.4891833431327
 20
-3.100847065087092
 30
0.0
  0
SPLINE
  5
DD
330
1F
100
AcDbEntity
  8
0
  6
Continuous
 62
     7
370
    25
100
AcDbSpline
210
0.0
220
0.0
230
1.0
 70
     8
 71
     3
 72
    11
 73
     7
 74
     0
 42
0.000000001
 43
0.00000001
 40
0.0
 40
0.0
 40
0.0
 40
0.0
 40
0.2686069457880561
 40
0.5682069657765141
 40
0.8682574369401608
 40
1.0
 40
1.0
 40
1.0
 40
1.0
 10
268.9933475667152
 20
-68.04425439569944
 30
0.0
 10
269.3389884670624
 20
-68.23499010555415
 30
0.0
 10
270.0701518651584
 20
-68.63846946698244
 30
0.0
 10
271.2618103921836
 20
-69.11195743154137
 30
0.0
 10
272.2948352000697
 20
-69.446866461055
 30
0.0
 10
272.9324878256271
 20
-69.57120169068561
 30
0.0
 10
273.1270393458568
 20
-69.60913709151862
 30
0.0
  0
LINE
  5
DE
330
1F
100
AcDbEntity
  8
0
  6
Continuous
 62
     7
370
    25
100
AcDbLine
 10
272.9510907413
 20
-69.5858975405
 30
0.0
 11
312.9664387799
 21
-78.6159775494
 31
0.0
  0
LINE
  5
DF
330
1F
100
AcDbEntity
  8
0
  6
Continuous
 62
     7
370
    25
100
AcDbLine
 10
337.6294192439
 20
-35.8938142679
 30
0.0
 11
309.7986368648
 21
-5.7571585372
 31
0.0
  0
LINE
  5
E0
330
1F
100
AcDbEntity
  8
0
  6
Continuous
 62
     7
370
    25
100
AcDbLine
 10
374.6413367595
 20
-56.8735076682
 30
0.0
 11
336.8642708681
 21
-35.0652717304
 31
0.0
  0
LINE
  5
E1
330
1F
100
AcDbEntity
  8
0
  6
Continuous
 62
     7
370
    25
100
AcDbLine
 10
311.8663033008
 20
-78.3677150927
 30
0.0
 11
349.6433691923
 21
-100.1759510305
 31
0.0
  0
LWPOLYLINE
  5
E2
330
1F
100
AcDbEntity
  8
0
  6
Continuous
 62
     7
370
    25
100
AcDbPolyline
 90
      103
 70
   128
 43
0.0
 10
211.8821630274
 20
-22.3966734863
 10
211.9324573886
 20
-20.482626949
 10
212.0831455429
 20
-18.5177749412
 10
212.3336585079
 20
-16.509568805
 10
212.6830427112
 20
-14.4656286693
 10
213.1299784295
 20
-12.3937050482
 10
213.6727639839
 20
-10.3016602078
 10
214.3093447154
 20
-8.1974286251
 10
215.0373050829
 20
-6.088991892
 10
215.8538818336
 20
-3.9843490583
 10
216.7559798082
 20
-1.8914816521
 10
217.7401745754
 20
0.1816668526
 10
218.8027348219
 20
2.2272374219
 10
219.9396302554
 20
4.2374676287
 10
221.1465447752
 20
6.2047311958
 10
222.4189041311
 20
8.1215691719
 10
223.7518798748
 20
9.980705901
 10
225.1404157015
 20
11.7750931272
 10
226.5792458894
 20
13.4979236806
 10
228.0629097874
 20
15.1426565719
 10
229.5857807912
 20
16.7030595752
 10
231.142082807
 20
18.1732126487
 10
232.7259106661
 20
19.547534929
 10
234.3312577841
 20
20.8208159078
 10
235.952034106
 20
21.9882257914
 10
237.5820910487
 20
23.0453359831
 10
239.2152457025
 20
23.9881360966
 10
240.8453026452
 20
24.813049591
 10
242.4660789671
 20
25.5169482168
 10
244.0714260851
 20
26.0971615677
 10
245.6552539442
 20
26.5514880096
 10
247.21155596
 20
26.8782029961
 10
248.7344269638
 20
27.076069428
 10
250.2180908618
 20
27.1443384111
 10
251.6569210497
 20
27.0827458321
 10
253.0454568764
 20
26.8915279471
 10
254.3784326201
 20
26.5714122526
 10
255.650791976
 20
26.1236091196
 10
256.8577064958
 20
25.5498193961
 10
257.9946019293
 20
24.8522207166
 10
259.0571621758
 20
24.0334560947
 10
260.041356943
 20
23.0966346808
 10
260.9434549176
 20
22.0453074263
 10
261.7600316683
 20
20.8834640409
 10
262.4879920358
 20
19.6155124578
 10
263.1245727673
 20
18.2462613433
 10
263.6673583217
 20
16.7809033645
 10
264.11429404
 20
15.22500074
 10
264.4636782433
 20
13.584451019
 10
264.7141912083
 20
11.8654809957
 10
264.8648793626
 20
10.0746098275
 10
264.9151737238
 20
8.2186319236
 10
264.8648793626
 20
6.3045853863
 10
264.7141912083
 20
4.3397333784
 10
264.4636782433
 20
2.3315272422
 10
264.11429404
 20
0.2875871066
 10
263.6673583217
 20
-1.7843365145
 10
263.1245727673
 20
-3.8763813549
 10
262.4879920358
 20
-5.9806129376
 10
261.7600316683
 20
-8.0890496708
 10
260.9434549176
 20
-10.1936925045
 10
260.041356943
 20
-12.2865599107
 10
259.0571621758
 20
-14.3597084154
 10
257.9946019293
 20
-16.4052789847
 10
256.8577064958
 20
-18.4155091915
 10
255.650791976
 20
-20.3827727586
 10
254.3784326201
 20
-22.2996107347
 10
253.0454568764
 20
-24.1587474638
 10
251.6569210497
 20
-25.95313469
 10
250.2180908618
 20
-27.6759652434
 10
248.7344269638
 20
-29.3206981347
 10
247.21155596
 20
-30.881101138
 10
245.6552539442
 20
-32.3512542115
 10
244.0714260851
 20
-33.7255764918
 10
242.4660789671
 20
-34.9988574706
 10
240.8453026452
 20
-36.1662673541
 10
239.2152457025
 20
-37.2233775458
 10
237.5820910487
 20
-38.1661776594
 10
235.952034106
 20
-38.9910911537
 10
234.3312577841
 20
-39.6949897796
 10
232.7259106661
 20
-40.2752031304
 10
231.142082807
 20
-40.7295295724
 10
229.5857807912
 20
-41.0562445589
 10
228.0629097874
 20
-41.2541109908
 10
226.5792458894
 20
-41.3223799738
 10
225.1404157015
 20
-41.2607873949
 10
223.7518798748
 20
-41.0695695099
 10
222.4189041311
 20
-40.7494538154
 10
221.1465447752
 20
-40.3016506824
 10
219.9396302554
 20
-39.7278609589
 10
218.8027348219
 20
-39.0302622794
 10
217.7401745754
 20
-38.2114976575
 10
216.7559798082
 20
-37.2746762436
 10
215.8538818336
 20
-36.2233489891
 10
215.0373050829
 20
-35.0615056036
 10
214.3093447154
 20
-33.7935540206
 10
213.6727639839
 20
-32.424302906
 10
213.1299784295
 20
-30.9589449273
 10
212.6830427112
 20
-29.4030423028
 10
212.3336585079
 20
-27.7624925818
 10
212.0831455429
 20
-26.0435225584
 10
211.9324573886
 20
-24.2526513902
 10
211.8821630274
 20
-22.3966734863
  0
LWPOLYLINE
  5
E3
330
1F
100
AcDbEntity
  8
0
  6
Continuous
 62
     7
370
    25
100
AcDbPolyline
 90
       94
 70
   128
 43
0.0
 10
216.6904901911
 20
-19.6208852991
 10
216.7400153723
 20
-17.8999740204
 10
216.8883630594
 20
-16.1297354636
 10
217.1348575858
 20
-14.3182458713
 10
217.4783741575
 20
-12.4737707991
 10
217.9173454386
 20
-10.6047265231
 10
218.4497681365
 20
-8.7196406862
 10
219.0732135393
 20
-6.8271146562
 10
219.7848367347
 20
-4.9357832223
 10
220.581389781
 20
-3.0542773335
 10
221.4592388298
 20
-1.1911807541
 10
222.4143786133
 20
0.6450041563
 10
223.442452201
 20
2.4459020682
 10
224.5387668049
 20
4.2032935785
 10
225.6983201207
 20
5.9091608359
 10
226.9158240362
 20
7.5557209989
 10
228.1857197771
 20
9.1354593145
 10
229.5022154444
 20
10.6411705602
 10
230.8593037953
 20
12.0659829964
 10
232.2507925356
 20
13.4033941058
 10
233.670332967
 20
14.6473038607
 10
235.1114473165
 20
15.7920365837
 10
236.5675603465
 20
16.8323668008
 10
238.0320285364
 20
17.7635497755
 10
239.498169594
 20
18.5813370247
 10
240.9592937361
 20
19.2819943766
 10
242.4087345577
 20
19.8623289166
 10
243.8398782141
 20
20.3196891032
 10
245.2461950718
 20
20.6519906453
 10
246.6212676146
 20
20.8577158808
 10
247.9588228768
 20
20.9359264167
 10
249.2527574679
 20
20.8862654082
 10
250.4971675363
 20
20.708959647
 10
251.6863737943
 20
20.4048187984
 10
252.8149518106
 20
19.9752285548
 10
253.8777517674
 20
19.4221513934
 10
254.8699254598
 20
18.7481102248
 10
255.7869434188
 20
17.9561800253
 10
256.6246225697
 20
17.0499733861
 10
257.3791407201
 20
16.0336268237
 10
258.0470549993
 20
14.9117764428
 10
258.6253189805
 20
13.689541205
 10
259.1112932173
 20
12.3724985929
 10
259.5027610488
 20
10.9666579922
 10
259.7979351852
 20
9.4784329344
 10
259.9954695617
 20
7.9146146695
 10
260.0944619721
 20
6.2823377549
 10
260.0944619721
 20
4.5890507768
 10
259.9954695617
 20
2.8424796579
 10
259.7979351852
 20
1.0505930566
 10
259.5027610488
 20
-0.7784328051
 10
259.1112932173
 20
-2.6362525434
 10
258.6253189805
 20
-4.5143890661
 10
258.0470549993
 20
-6.4042736852
 10
257.3791407201
 20
-8.2972814784
 10
256.6246225697
 20
-10.1847761543
 10
255.7869434188
 20
-12.0581465544
 10
254.8699254598
 20
-13.9088431529
 10
253.8777517674
 20
-15.7284236834
 10
252.8149518106
 20
-17.5085835556
 10
251.6863737943
 20
-19.2412022412
 10
250.4971675363
 20
-20.9183714094
 10
249.2527574679
 20
-22.5324424533
 10
247.9588228768
 20
-24.0760485411
 10
246.6212676146
 20
-25.5421464394
 10
245.2461950718
 20
-26.9240461683
 10
243.8398782141
 20
-28.2154435087
 10
242.4087345577
 20
-29.4104466162
 10
240.9592937361
 20
-30.5036008277
 10
239.498169594
 20
-31.4899215019
 10
238.0320285364
 20
-32.3649046861
 10
236.5675603465
 20
-33.124560693
 10
235.1114473165
 20
-33.7654227951
 10
233.670332967
 20
-34.2845652835
 10
232.2507925356
 20
-34.6796220244
 10
230.8593037953
 20
-34.9487896175
 10
229.5022154444
 20
-35.0908380396
 10
228.1857197771
 20
-35.1051203375
 10
226.9158240362
 20
-34.9915724355
 10
225.6983201207
 20
-34.7507123722
 10
224.5387668049
 20
-34.3836368763
 10
223.442452201
 20
-33.8920232647
 10
222.4143786133
 20
-33.2781138515
 10
221.4592388298
 20
-32.5447098618
 10
220.581389781
 20
-31.6951562202
 10
219.7848367347
 20
-30.7333309028
 10
219.0732135393
 20
-29.6636221215
 10
218.4497681365
 20
-28.4909108318
 10
217.9173454386
 20
-27.2205471573
 10
217.4783741575
 20
-25.8583283343
 10
217.1348575858
 20
-24.4104690536
 10
216.8883630594
 20
-22.8835759837
 10
216.7400153723
 20
-21.2846160206
 10
216.6904901911
 20
-19.6208852991
  0
LINE
  5
E4
330
1F
100
AcDbEntity
  8
0
  6
Continuous
 62
     7
370
    25
100
AcDbLine
 10
309.7986368648
 20
-5.7571585372
 30
0.0
 11
309.9280935442
 21
-5.8993285755
 31
0.0
  0
LINE
  5
E5
330
1F
100
AcDbEntity
  8
0
  6
Continuous
 62
     7
370
    25
100
AcDbLine
 10
273.1070920327
 20
-69.620146697
 30
0.0
 11
272.9510907413
 21
-69.5858975405
 31
0.0
  0
LWPOLYLINE
  5
E6
330
1F
100
AcDbEntity
  8
0
  6
Continuous
 62
     7
370
    25
100
AcDbPolyline
 90
       44
 70
   128
 43
0.0
 10
374.6413367595
 20
-56.8735076682
 10
375.1010021432
 20
-57.1591403574
 10
375.9633121757
 20
-57.8184376535
 10
376.7483288394
 20
-58.5935332673
 10
377.4516635935
 20
-59.4800921486
 10
378.0693822933
 20
-60.4731564707
 10
378.5980315312
 20
-61.567172249
 10
379.0346531255
 20
-62.7560212821
 10
379.3768065101
 20
-64.0330553742
 10
379.6225779546
 20
-65.391133029
 10
379.7705924182
 20
-66.8226590893
 10
379.820022769
 20
-68.3196277995
 10
379.7705924182
 20
-69.8736675779
 10
379.6225779546
 20
-71.4760875003
 10
379.3768065101
 20
-73.1179268249
 10
379.0346531255
 20
-74.7900028062
 10
378.5980315312
 20
-76.4829644016
 10
378.0693822933
 20
-78.1873455981
 10
377.4516635935
 20
-79.8936127499
 10
376.7483288394
 20
-81.5922246534
 10
375.9633121757
 20
-83.2736812146
 10
375.1010021432
 20
-84.9285804822
 10
374.1662219217
 20
-86.547667315
 10
373.1641996961
 20
-88.1218862311
 10
372.1005390217
 20
-89.6424327368
 10
370.9811878725
 20
-91.1008054151
 10
369.8124063724
 20
-92.4888473679
 10
368.6007305758
 20
-93.7987975441
 10
367.3529375643
 20
-95.0233276184
 10
366.0760046168
 20
-96.1555914179
 10
364.7770728253
 20
-97.1892565728
 10
363.4634068414
 20
-98.1185414425
 10
362.1423529759
 20
-98.9382499507
 10
360.8212991104
 20
-99.6437977696
 10
359.5076331265
 20
-100.2312393605
 10
358.2087013351
 20
-100.6972889297
 10
356.9317683876
 20
-101.0393405297
 10
355.683975376
 20
-101.255481601
 10
354.4722995794
 20
-101.3445025216
 10
353.3035180794
 20
-101.305906965
 10
352.1841669301
 20
-101.1399096146
 10
351.1205062557
 20
-100.8474395833
 10
350.1184840301
 20
-100.4301309033
 10
349.6433691923
 20
-100.1759510305
  0
LWPOLYLINE
  5
E7
330
1F
100
AcDbEntity
  8
0
  6
Continuous
 62
     1
370
    25
100
AcDbPolyline
 90
       53
 70
   128
 43
0.0
 10
306.4705215089
 20
-3.0859672243
 10
307.3179787286
 20
-3.6215586282
 10
308.3805389751
 20
-4.4403232501
 10
309.3647337423
 20
-5.377144664
 10
310.2668317169
 20
-6.4284719185
 10
311.0834084676
 20
-7.5903153039
 10
311.8113688351
 20
-8.858266887
 10
312.4479495666
 20
-10.2275180015
 10
312.990735121
 20
-11.6928759803
 10
313.4376708393
 20
-13.2487786048
 10
313.7870550426
 20
-14.8893283258
 10
314.0375680076
 20
-16.6082983491
 10
314.1882561619
 20
-18.3991695173
 10
314.2385505231
 20
-20.2551474212
 10
314.1882561619
 20
-22.1691939585
 10
314.0375680076
 20
-24.1340459664
 10
313.7870550426
 20
-26.1422521026
 10
313.4376708393
 20
-28.1861922383
 10
312.990735121
 20
-30.2581158594
 10
312.4479495666
 20
-32.3501606998
 10
311.8113688351
 20
-34.4543922824
 10
311.0834084676
 20
-36.5628290156
 10
310.2668317169
 20
-38.6674718493
 10
309.3647337423
 20
-40.7603392555
 10
308.3805389751
 20
-42.8334877602
 10
307.3179787286
 20
-44.8790583295
 10
306.1810832951
 20
-46.8892885363
 10
304.9741687753
 20
-48.8565521034
 10
303.7018094194
 20
-50.7733900795
 10
302.3688336757
 20
-52.6325268086
 10
300.980297849
 20
-54.4269140348
 10
299.5414676611
 20
-56.1497445882
 10
298.0578037631
 20
-57.7944774795
 10
296.5349327593
 20
-59.3548804828
 10
294.9786307435
 20
-60.8250335563
 10
293.3948028844
 20
-62.1993558366
 10
291.7894557664
 20
-63.4726368154
 10
290.1686794445
 20
-64.6400466989
 10
288.5386225018
 20
-65.6971568906
 10
286.905467848
 20
-66.6399570042
 10
285.2754109053
 20
-67.4648704986
 10
283.6546345834
 20
-68.1687691244
 10
282.0492874654
 20
-68.7489824752
 10
280.4654596063
 20
-69.2033089172
 10
278.9091575905
 20
-69.5300239037
 10
277.3862865867
 20
-69.7278903356
 10
275.9026226887
 20
-69.7961593186
 10
274.4637925008
 20
-69.7345667397
 10
273.0752566741
 20
-69.5433488547
 10
271.7422809304
 20
-69.2232331602
 10
270.4699215745
 20
-68.7754300272
 10
269.2630070548
 20
-68.2016403037
 10
268.973568841
 20
-68.0396330281
  0
LWPOLYLINE
  5
E8
330
1F
100
AcDbEntity
  8
0
  6
Continuous
 62
     1
370
    25
100
AcDbPolyline
 90
       47
 70
   128
 43
0.0
 10
309.9280935442
 20
-5.8993285755
 10
310.5739268261
 20
-6.6728734734
 10
311.389204927
 20
-7.8328657703
 10
312.1160062561
 20
-9.0987974552
 10
312.7515728291
 20
-10.4658697484
 10
313.2934943731
 20
-11.9288937854
 10
313.7397162292
 20
-13.4823202758
 10
314.0885472551
 20
-15.1202554734
 10
314.338659825
 20
-16.8364889335
 10
314.4891082691
 20
-18.6245081533
 10
314.5393209708
 20
-20.4775314611
 10
314.4891082691
 20
-22.3885291202
 10
314.338659825
 20
-24.3502524161
 10
314.0885472551
 20
-26.3552597027
 10
313.7397162292
 20
-28.39594663
 10
313.2934943731
 20
-30.4645699091
 10
312.7515728291
 20
-32.5532832427
 10
312.1160062561
 20
-34.6541650815
 10
311.389204927
 20
-36.7592437193
 10
310.5739268261
 20
-38.8605360753
 10
309.6732671127
 20
-40.9500697472
 10
308.6906383643
 20
-43.0199187503
 10
307.6297705772
 20
-45.0622308949
 10
306.494686141
 20
-47.0692589625
 10
305.289691937
 20
-49.0333911236
 10
304.0193595811
 20
-50.9471760313
 10
302.6885056679
 20
-52.8033539985
 10
301.3021812336
 20
-54.5948828521
 10
299.8656427806
 20
-56.3149698705
 10
298.3843417403
 20
-57.9570854702
 10
296.8638954974
 20
-59.5150027479
 10
295.3100722431
 20
-60.9828123073
 10
293.7287659509
 20
-62.3549488736
 10
292.1259749734
 20
-63.6262006069
 10
290.5077798167
 20
-64.7917523515
 10
288.8803184449
 20
-65.8471785991
 10
287.249764548
 20
-66.7884773276
 10
285.6223031762
 20
-67.6120779838
 10
284.0041080195
 20
-68.3148545987
 10
282.401317042
 20
-68.894145938
 10
280.8200107498
 20
-69.3477467548
 10
279.2661874955
 20
-69.6739433382
 10
277.7457412526
 20
-69.8714959264
 10
276.2644402123
 20
-69.9396541036
 10
274.8279017593
 20
-69.8781590789
 10
273.441577325
 20
-69.687246347
 10
273.1070920327
 20
-69.620146697
  0
LWPOLYLINE
  5
E9
330
1F
100
AcDbEntity
  8
0
  6
Continuous
 62
     1
370
    25
100
AcDbPolyline
 90
       40
 70
   128
 43
0.0
 10
337.6294192439
 20
-35.8938142679
 10
337.7234462287
 20
-35.9971996557
 10
338.4284602714
 20
-36.8858765838
 10
339.0476554279
 20
-37.8813121677
 10
339.5775664372
 20
-38.9779410149
 10
340.0152311659
 20
-40.1696304748
 10
340.3582011457
 20
-41.4497152404
 10
340.6045600119
 20
-42.8110363245
 10
340.7529274554
 20
-44.2459821245
 10
340.8024763442
 20
-45.7465262572
 10
340.7529274554
 20
-47.3042783191
 10
340.6045600119
 20
-48.9105255231
 10
340.3582011457
 20
-50.5562864997
 10
340.0152311659
 20
-52.2323559752
 10
339.5775664372
 20
-53.9293623748
 10
339.0476554279
 20
-55.6378134503
 10
338.4284602714
 20
-57.3481565448
 10
337.7234462287
 20
-59.0508253602
 10
336.9365527132
 20
-60.7362992707
 10
336.0721840706
 20
-62.3951512313
 10
335.1351713832
 20
-64.0181048084
 10
334.1307553484
 20
-65.5960828482
 10
333.0645540092
 20
-67.1202633677
 10
331.9425291693
 20
-68.5821187151
 10
330.770956099
 20
-69.9734771649
 10
329.5563866579
 20
-71.2865548534
 10
328.3056124153
 20
-72.5140105289
 10
327.025629419
 20
-73.6489780582
 10
325.7235952243
 20
-74.6851125252
 10
324.4067913582
 20
-75.6166164639
 10
323.0825819943
 20
-76.4382834858
 10
321.7583726305
 20
-77.1455160518
 10
320.4415687643
 20
-77.7343614954
 10
319.1395345697
 20
-78.201523711
 10
317.8595515733
 20
-78.5443930927
 10
316.6087773308
 20
-78.7610506188
 10
315.3942078896
 20
-78.850284958
 10
314.2226348194
 20
-78.8115959827
 10
313.1006099794
 20
-78.6452029408
 10
312.9664387799
 20
-78.6159775494
  0
LWPOLYLINE
  5
EA
330
1F
100
AcDbEntity
  8
0
  6
Continuous
 62
     1
370
    25
100
AcDbPolyline
 90
       42
 70
   128
 43
0.0
 10
337.194104202
 20
-35.4224342287
 10
337.2465375157
 20
-35.4677193906
 10
338.0315541793
 20
-36.2428150045
 10
338.7348889335
 20
-37.1293738858
 10
339.3526076332
 20
-38.1224382079
 10
339.8812568712
 20
-39.2164539862
 10
340.3178784654
 20
-40.4053030193
 10
340.66003185
 20
-41.6823371114
 10
340.9058032946
 20
-43.0404147662
 10
341.0538177582
 20
-44.4719408265
 10
341.103248109
 20
-45.9689095367
 10
341.0538177582
 20
-47.5229493151
 10
340.9058032946
 20
-49.1253692375
 10
340.66003185
 20
-50.7672085621
 10
340.3178784654
 20
-52.4392845433
 10
339.8812568712
 20
-54.1322461387
 10
339.3526076332
 20
-55.8366273352
 10
338.7348889335
 20
-57.5428944871
 10
338.0315541793
 20
-59.2415063905
 10
337.2465375157
 20
-60.9229629518
 10
336.3842274831
 20
-62.5778622194
 10
335.4494472617
 20
-64.1969490522
 10
334.4474250361
 20
-65.7711679683
 10
333.3837643617
 20
-67.291714474
 10
332.2644132124
 20
-68.7500871523
 10
331.0956317124
 20
-70.1381291051
 10
329.8839559158
 20
-71.4480792812
 10
328.6361629042
 20
-72.6726093555
 10
327.3592299567
 20
-73.8048731551
 10
326.0602981653
 20
-74.8385383099
 10
324.7466321814
 20
-75.7678231797
 10
323.4255783159
 20
-76.5875316878
 10
322.1045244504
 20
-77.2930795068
 10
320.7908584664
 20
-77.8805210977
 10
319.491926675
 20
-78.3465706668
 10
318.2149937275
 20
-78.6886222668
 10
316.9672007159
 20
-78.9047633381
 10
315.7555249194
 20
-78.9937842588
 10
314.5867434193
 20
-78.9551887021
 10
313.4673922701
 20
-78.7891913518
 10
312.4037315956
 20
-78.4967213205
 10
312.3405409574
 20
-78.4747330705
  0
ENDSEC
  0
SECTION
  2
OBJECTS
  0
DICTIONARY
  5
C
330
0
100
AcDbDictionary
281
     1
  3
ACAD_GROUP
350
D
  3
ACAD_LAYOUT
350
1A
  3
ACAD_MLINESTYLE
350
17
  3
ACAD_PLOTSETTINGS
350
19
  3
ACAD_PLOTSTYLENAME
350
E
  3
ACAD_SCALELIST
350
47
  0
DICTIONARY
  5
D
102
{ACAD_REACTORS
330
C
102
}
330
C
100
AcDbDictionary
281
     1
  0
DICTIONARY
  5
1A
102
{ACAD_REACTORS
330
C
102
}
330
C
100
AcDbDictionary
281
     1
  3
Layout1
350
1E
  3
Layout2
350
26
  3
Model
350
22
  0
DICTIONARY
  5
17
102
{ACAD_REACTORS
330
C
102
}
330
C
100
AcDbDictionary
281
     1
  3
Standard
350
18
  0
DICTIONARY
  5
19
102
{ACAD_REACTORS
330
C
102
}
330
C
100
AcDbDictionary
281
     1
  0
ACDBDICTIONARYWDFLT
  5
E
102
{ACAD_REACTORS
330
C
102
}
330
C
100
AcDbDictionary
281
     1
  3
Normal
350
F
100
AcDbDictionaryWithDefault
340
F
  0
DICTIONARY
  5
47
102
{ACAD_REACTORS
330
C
102
}
330
C
100
AcDbDictionary
281
     1
  3
A0
350
48
  3
A1
350
49
  3
A2
350
4A
  3
A3
350
4B
  3
A4
350
4C
  3
A5
350
4D
  3
A6
350
4E
  3
A7
350
4F
  3
A8
350
50
  3
A9
350
51
  3
B0
350
52
  3
B1
350
53
  3
B2
350
54
  3
B3
350
55
  3
B4
350
56
  3
B5
350
57
  3
B6
350
58
  3
B7
350
59
  3
B8
350
5A
  3
B9
350
5B
  3
C0
350
5C
  3
C1
350
5D
  3
C2
350
5E
  3
C3
350
5F
  3
C4
350
60
  3
C5
350
61
  3
C6
350
62
  3
C7
350
63
  3
C8
350
64
  3
C9
350
65
  3
D0
350
66
  3
D1
350
67
  3
D2
350
68
  0
LAYOUT
  5
1E
102
{ACAD_REACTORS
330
1A
102
}
330
1A
100
AcDbPlotSettings
  1

  2
none_device
  4

  6

 40
0.0
 41
0.0
 42
0.0
 43
0.0
 44
0.0
 45
0.0
 46
0.0
 47
0.0
 48
0.0
 49
0.0
140
0.0
141
0.0
142
1.0
143
1.0
 70
   688
 72
     1
 73
     0
 74
     5
  7

 75
    16
147
1.0
148
0.0
149
0.0
100
AcDbLayout
  1
Layout1
 70
     1
 71
     1
 10
0.0
 20
0.0
 11
420.0
 21
297.0
 12
0.0
 22
0.0
 32
0.0
 14
1.0000000000E+20
 24
1.0000000000E+20
 34
1.0000000000E+20
 15
-1.0000000000E+20
 25
-1.0000000000E+20
 35
-1.0000000000E+20
146
0.0
 13
0.0
 23
0.0
 33
0.0
 16
1.0
 26
0.0
 36
0.0
 17
0.0
 27
1.0
 37
0.0
 76
     0
330
1B
  0
LAYOUT
  5
26
102
{ACAD_REACTORS
330
1A
102
}
330
1A
100
AcDbPlotSettings
  1

  2
none_device
  4

  6

 40
0.0
 41
0.0
 42
0.0
 43
0.0
 44
0.0
 45
0.0
 46
0.0
 47
0.0
 48
0.0
 49
0.0
140
0.0
141
0.0
142
1.0
143
1.0
 70
   688
 72
     1
 73
     0
 74
     5
  7

 75
    16
147
1.0
148
0.0
149
0.0
100
AcDbLayout
  1
Layout2
 70
     1
 71
     2
 10
0.0
 20
0.0
 11
0.0
 21
0.0
 12
0.0
 22
0.0
 32
0.0
 14
0.0
 24
0.0
 34
0.0
 15
0.0
 25
0.0
 35
0.0
146
0.0
 13
0.0
 23
0.0
 33
0.0
 16
1.0
 26
0.0
 36
0.0
 17
0.0
 27
1.0
 37
0.0
 76
     0
330
23
  0
LAYOUT
  5
22
102
{ACAD_REACTORS
330
1A
102
}
330
1A
100
AcDbPlotSettings
  1

  2
none_device
  4
Letter_(8.50_x_11.00_Inches)
  6

 40
6.35
 41
6.35
 42
6.35000508
 43
6.35000508
 44
215.9
 45
279.4
 46
0.0
 47
0.0
 48
0.0
 49
0.0
140
0.0
141
0.0
142
1.0
143
1.0
 70
  1712
 72
     1
 73
     0
 74
     0
  7

 75
     0
147
1.0
148
0.0
149
0.0
100
AcDbLayout
  1
Model
 70
     1
 71
     0
 10
0.0
 20
0.0
 11
279.4
 21
215.9
 12
0.0
 22
0.0
 32
0.0
 14
0.0
 24
0.0
 34
0.0
 15
279.4
 25
215.9
 35
0.0
146
0.0
 13
0.0
 23
0.0
 33
0.0
 16
1.0
 26
0.0
 36
0.0
 17
0.0
 27
1.0
 37
0.0
 76
     0
330
1F
331
29
  0
MLINESTYLE
  5
18
102
{ACAD_REACTORS
330
17
102
}
330
17
100
AcDbMlineStyle
  2
Standard
 70
     0
  3

 62
   256
 51
90.0
 52
90.0
 71
     2
 49
0.5
 62
   256
  6
BYLAYER
 49
-0.5
 62
   256
  6
BYLAYER
  0
ACDBPLACEHOLDER
  5
F
102
{ACAD_REACTORS
330
E
102
}
330
E
  0
SCALE
  5
48
102
{ACAD_REACTORS
330
47
102
}
330
47
100
AcDbScale
 70
     0
300
1:1
140
1.0
141
1.0
290
     1
  0
SCALE
  5
49
102
{ACAD_REACTORS
330
47
102
}
330
47
100
AcDbScale
 70
     0
300
1:2
140
1.0
141
2.0
290
     0
  0
SCALE
  5
4A
102
{ACAD_REACTORS
330
47
102
}
330
47
100
AcDbScale
 70
     0
300
1:4
140
1.0
141
4.0
290
     0
  0
SCALE
  5
4B
102
{ACAD_REACTORS
330
47
102
}
330
47
100
AcDbScale
 70
     0
300
1:5
140
1.0
141
5.0
290
     0
  0
SCALE
  5
4C
102
{ACAD_REACTORS
330
47
102
}
330
47
100
AcDbScale
 70
     0
300
1:8
140
1.0
141
8.0
290
     0
  0
SCALE
  5
4D
102
{ACAD_REACTORS
330
47
102
}
330
47
100
AcDbScale
 70
     0
300
1:10
140
1.0
141
10.0
290
     0
  0
SCALE
  5
4E
102
{ACAD_REACTORS
330
47
102
}
330
47
100
AcDbScale
 70
     0
300
1:16
140
1.0
141
16.0
290
     0
  0
SCALE
  5
4F
102
{ACAD_REACTORS
330
47
102
}
330
47
100
AcDbScale
 70
     0
300
1:20
140
1.0
141
20.0
290
     0
  0
SCALE
  5
50
102
{ACAD_REACTORS
330
47
102
}
330
47
100
AcDbScale
 70
     0
300
1:30
140
1.0
141
30.0
290
     0
  0
SCALE
  5
51
102
{ACAD_REACTORS
330
47
102
}
330
47
100
AcDbScale
 70
     0
300
1:40
140
1.0
141
40.0
290
     0
  0
SCALE
  5
52
102
{ACAD_REACTORS
330
47
102
}
330
47
100
AcDbScale
 70
     0
300
1:50
140
1.0
141
50.0
290
     0
  0
SCALE
  5
53
102
{ACAD_REACTORS
330
47
102
}
330
47
100
AcDbScale
 70
     0
300
1:100
140
1.0
141
100.0
290
     0
  0
SCALE
  5
54
102
{ACAD_REACTORS
330
47
102
}
330
47
100
AcDbScale
 70
     0
300
2:1
140
2.0
141
1.0
290
     0
  0
SCALE
  5
55
102
{ACAD_REACTORS
330
47
102
}
330
47
100
AcDbScale
 70
     0
300
4:1
140
4.0
141
1.0
290
     0
  0
SCALE
  5
56
102
{ACAD_REACTORS
330
47
102
}
330
47
100
AcDbScale
 70
     0
300
8:1
140
8.0
141
1.0
290
     0
  0
SCALE
  5
57
102
{ACAD_REACTORS
330
47
102
}
330
47
100
AcDbScale
 70
     0
300
10:1
140
10.0
141
1.0
290
     0
  0
SCALE
  5
58
102
{ACAD_REACTORS
330
47
102
}
330
47
100
AcDbScale
 70
     0
300
100:1
140
100.0
141
1.0
290
     0
  0
SCALE
  5
59
102
{ACAD_REACTORS
330
47
102
}
330
47
100
AcDbScale
 70
     0
300
1/128" = 1'-0"
140
0.0078125
141
12.0
290
     0
  0
SCALE
  5
5A
102
{ACAD_REACTORS
330
47
102
}
330
47
100
AcDbScale
 70
     0
300
1/64" = 1'-0"
140
0.015625
141
12.0
290
     0
  0
SCALE
  5
5B
102
{ACAD_REACTORS
330
47
102
}
330
47
100
AcDbScale
 70
     0
300
1/32" = 1'-0"
140
0.03125
141
12.0
290
     0
  0
SCALE
  5
5C
102
{ACAD_REACTORS
330
47
102
}
330
47
100
AcDbScale
 70
     0
300
1/16" = 1'-0"
140
0.0625
141
12.0
290
     0
  0
SCALE
  5
5D
102
{ACAD_REACTORS
330
47
102
}
330
47
100
AcDbScale
 70
     0
300
3/32" = 1'-0"
140
0.09375
141
12.0
290
     0
  0
SCALE
  5
5E
102
{ACAD_REACTORS
330
47
102
}
330
47
100
AcDbScale
 70
     0
300
1/8" = 1'-0"
140
0.125
141
12.0
290
     0
  0
SCALE
  5
5F
102
{ACAD_REACTORS
330
47
102
}
330
47
100
AcDbScale
 70
     0
300
3/16" = 1'-0"
140
0.1875
141
12.0
290
     0
  0
SCALE
  5
60
102
{ACAD_REACTORS
330
47
102
}
330
47
100
AcDbScale
 70
     0
300
1/4" = 1'-0"
140
0.25
141
12.0
290
     0
  0
SCALE
  5
61
102
{ACAD_REACTORS
330
47
102
}
330
47
100
AcDbScale
 70
     0
300
3/8" = 1'-0"
140
0.375
141
12.0
290
     0
  0
SCALE
  5
62
102
{ACAD_REACTORS
330
47
102
}
330
47
100
AcDbScale
 70
     0
300
1/2" = 1'-0"
140
0.5
141
12.0
290
     0
  0
SCALE
  5
63
102
{ACAD_REACTORS
330
47
102
}
330
47
100
AcDbScale
 70
     0
300
3/4" = 1'-0"
140
0.75
141
12.0
290
     0
  0
SCALE
  5
64
102
{ACAD_REACTORS
330
47
102
}
330
47
100
AcDbScale
 70
     0
300
1" = 1'-0"
140
1.0
141
12.0
290
     0
  0
SCALE
  5
65
102
{ACAD_REACTORS
330
47
102
}
330
47
100
AcDbScale
 70
     0
300
1-1/2" = 1'-0"
140
1.5
141
12.0
290
     0
  0
SCALE
  5
66
102
{ACAD_REACTORS
330
47
102
}
330
47
100
AcDbScale
 70
     0
300
3" = 1'-0"
140
3.0
141
12.0
290
     0
  0
SCALE
  5
67
102
{ACAD_REACTORS
330
47
102
}
330
47
100
AcDbScale
 70
     0
300
6" = 1'-0"
140
6.0
141
12.0
290
     0
  0
SCALE
  5
68
102
{ACAD_REACTORS
330
47
102
}
330
47
100
AcDbScale
 70
     0
300
1'-0" = 1'-0"
140
12.0
141
12.0
290
     0
  0
ENDSEC
  0
EOF
